Como tocar a música Menino da Porteira no Violão para iniciantes

Icone da musica sertaneja o 'Menino da Porteira' é uma musica de fácil execução para quem esta aprendendo violão. Voce so precisa conseguir três acordes maiores; Mi Maior (E), La Maior (A) e Re Maior (D). Grande parte da musica é uma alternância entre os acordes de Mi e La.


Não se preocupe com os solos no inicio, que colocamos aqui apenas para quem ja executa os acordes com tranquilidade e quer avançar. Nossa dica para quem esta começando é focar nos acordes maiores, e treinar a alternância entre eles.


Também colocamos um audio legendado aqui pra voce acompanhar o Sergio Reis.








[Intro] E A E A E A E A E A

Parte 1 de 3
E|-10-10-10--9-----------------------------------------|
B|-12-12-12--10--5-5-5--7-9-7-5-3--2-2--3-2------------|
G|---------------6-6-6--7-9-7-6-4--2-2--4-2------------|
D|-----------------------------------------------------|
A|-----------------------------------------------------|
E|-----------------------------------------------------|

Parte 2 de 3
E|-10-10-10--9---9-9-9--10-12-10-9-7--5-5-7-5----------|
B|-12-12-12--10----------------------------------------|
G|---------------9-9-9--11-13-11-9-7--6-6-7-6----------|
D|-----------------------------------------------------|
A|-----------------------------------------------------|
E|-----------------------------------------------------|

Parte 3 de 3
E|-10-10-10--9-----------------------------------------|
B|-12-12-12--10----------------------------------------|
G|-----------------------------------------------------|
D|-----------------------------------------------------|
A|-----------------------------------------------------|
E|-----------------------------------------------------|

[Primeira parte]

A
  Toda vez que eu viajava 
                      E
Pela estrada de Ouro Fino

De longe eu avistava 
                  A
A figura de um menino

Que corria abrir a porteira 
                     E
E depois vinha me pedindo

Toque o berrante, seu moço 
          D     E     A
Que é pra eu ficar ouvindo

[Segunda parte]

       D
Quando a boiada passava 
                  E
E a poeira ia baixando
                                  A
Eu jogava uma moeda e ele saía pulando

Obrigado, boiadeiro
                        E
Que Deus vá lhe acompanhando

Pra aquele sertão afora 
        D     E    A
Meu berrante ia tocando

( E  A  E  A  E  A  E  A  E  A )

Parte 1 de 3
E|-10-10-10--9-----------------------------------------|
B|-12-12-12--10--5-5-5--7-9-7-5-3--2-2--3-2------------|
G|---------------6-6-6--7-9-7-6-4--2-2--4-2------------|
D|-----------------------------------------------------|
A|-----------------------------------------------------|
E|-----------------------------------------------------|

Parte 2 de 3
E|-10-10-10--9---9-9-9--10-12-10-9-7--5-5-7-5----------|
B|-12-12-12--10----------------------------------------|
G|---------------9-9-9--11-13-11-9-7--6-6-7-6----------|
D|-----------------------------------------------------|
A|-----------------------------------------------------|
E|-----------------------------------------------------|

Parte 3 de 3
E|-10-10-10--9-----------------------------------------|
B|-12-12-12--10----------------------------------------|
G|-----------------------------------------------------|
D|-----------------------------------------------------|
A|-----------------------------------------------------|
E|-----------------------------------------------------|

[Terceira parte]

A
  Nos caminhos desta vida 
                          E
Muitos espinhos eu encontrei

Mas nenhum calou mais fundo 
                       A
Do que esse eu passei

Na minha viagem de volta 
                      E
Qualquer coisa eu cismei

Vendo a porteira fechada
     D       E    A
O menino não avistei

[Quarta parte]

   D
Apeei do meu cavalo 
                         E
E no ranchinho à beira chão

Vi uma mulher chorando
                     A
Quis saber qual a razão

Boiadeiro veio tarde
                     E
Veja a cruz no estradão

Quem matou o meu filhinho 
        D       E   A
Foi um boi sem coração

( E  A  E  A  E  A  E  A  E  A )

Parte 1 de 3
E|-10-10-10--9-----------------------------------------|
B|-12-12-12--10--5-5-5--7-9-7-5-3--2-2--3-2------------|
G|---------------6-6-6--7-9-7-6-4--2-2--4-2------------|
D|-----------------------------------------------------|
A|-----------------------------------------------------|
E|-----------------------------------------------------|

Parte 2 de 3
E|-10-10-10--9---9-9-9--10-12-10-9-7--5-5-7-5----------|
B|-12-12-12--10----------------------------------------|
G|---------------9-9-9--11-13-11-9-7--6-6-7-6----------|
D|-----------------------------------------------------|
A|-----------------------------------------------------|
E|-----------------------------------------------------|

Parte 3 de 3
E|-10-10-10--9-----------------------------------------|
B|-12-12-12--10----------------------------------------|
G|-----------------------------------------------------|
D|-----------------------------------------------------|
A|-----------------------------------------------------|
E|-----------------------------------------------------|

[Quinta parte]

A
  Lá pras bandas de Ouro Fino 
                 E
Levando gado selvagem

Quando passo na porteira 
                 A
Até vejo a sua imagem

O seu rangido tão triste 
                    E
Mais parece uma mensagem

Daquele rosto trigueiro 
     D     E       A
Desejando-me boa viagem

[Sexta parte]

    D
A cruzinha no estradão 
                   E
Do pensamento não sai

Eu já fiz um juramento 
                   A
Que não esqueço jamais

Nem que o meu gado estoure
                     E
Que eu precise ir atrás

Neste pedaço de chão 
    D            E    A
Berrante eu não toco mais

( E  A  E  A  E  A  E  A  E  A )

Parte 1 de 3
E|-10-10-10--9-----------------------------------------|
B|-12-12-12--10--5-5-5--7-9-7-5-3--2-2--3-2------------|
G|---------------6-6-6--7-9-7-6-4--2-2--4-2------------|
D|-----------------------------------------------------|
A|-----------------------------------------------------|
E|-----------------------------------------------------|

Parte 2 de 3
E|-10-10-10--9---9-9-9--10-12-10-9-7--5-5-7-5----------|
B|-12-12-12--10----------------------------------------|
G|---------------9-9-9--11-13-11-9-7--6-6-7-6----------|
D|-----------------------------------------------------|
A|-----------------------------------------------------|
E|-----------------------------------------------------|

Parte 3 de 3
E|-10-10-10--9-----------------------------------------|
B|-12-12-12--10----------------------------------------|
G|-----------------------------------------------------|
D|-----------------------------------------------------|
A|-----------------------------------------------------|
E|-----------------------------------------------------|


955 visualizações0 comentário

Posts recentes

Ver tudo